Foro dedicado al Flamenco y sus vertientes y "palos"

Moderador: Moderadores de Estilos

Improvisacion

Notapor nanito » 17 Jun 2010 21:03

Hola, estoy empezando con el tema de la improvisación.
Hace aproximadamente un año y medio que toco la guitarra. La tocaba de hacia años ya, pero solo me savia una cancion (noches de bohemia, de navajita platea)
Ahora me estoy liando haver si aprendo a improvisar.
Todo lo que se lo he aprendido solo escuchando musica y provando acordes, llevo mucho tiempo para sacar lo poco que se, pero me siento muy orgulloso de mi mismo.
Lo que toco es flamenco.
Al lio.

Estoy improvisando con estos acordes:

SI - m7
SOL
RE
MI - m

El ritmo es de rumba.
Para comenzar, ya tengo algo echo, es lo siguiente:

---------x4--------------- x4-------------- x4----------- x4
e:---2----------|----|--0-------|----|-0--------|---|-0------------|
B:-------3------|----|-----3----|----|----3-----|---|---2----------|
G:----------4---|----|-------4--|----|-------0--|---|-----0--------|
D:--------------|-0--|----------|-0--|----------|-0-|--------------|
A:--------------|----|----------|----|----------|----|-------------|
E:--------------|----|----------|----|----------|----|-------------|



--------x4----------- x4-------- x4------ x4
e:---2------------0--------0---------0------------|
B:-------3-----------3--------3--------2----------|
G:----------4----------4---------0-------0--------|
D:------------------------------------------------|
A:-----------------------------------------------|
E:-----------------------------------------------|

Y despues vienen los acordes por el orden en que los he puesto.

Me gustaria que me echarais una mano para meter un punteo ya que no lo consigo.. haver si yego ha aprender

Gracias de antemano
nanito
Se va picando...
Se va picando...
 
Mensajes: 31
Registrado: 10 Jul 2009 19:36
Puntos: 215.000
Ha agradecido: 0 vez
Le han agradecido: 0 vez

Notapor nanito » 18 Jun 2010 01:25

echarme una mano porfabor
nanito
Se va picando...
Se va picando...
 
Mensajes: 31
Registrado: 10 Jul 2009 19:36
Puntos: 215.000
Ha agradecido: 0 vez
Le han agradecido: 0 vez

Foro Estadísticas

¿Quién está conectado?

Usuarios navegando por este Foro: No hay usuarios registrados visitando el Foro y 5 invitados

Opciones

Volver a Flamenco